root/other-projects/nightly-tasks/diffcol/trunk/model-collect/Multimedia/archives/HASH0100.dir/doc.xml @ 32161

Revision 32161, 6.1 KB (checked in by ak19, 20 months ago)

Regenerating model collections after <meta-file> entry in archiveinf-src.db has become compulsory

Line 
1<?xml version="1.0" encoding="utf-8" standalone="no"?>
2<!DOCTYPE Archive SYSTEM "http://greenstone.org/dtd/Archive/1.0/Archive.dtd">
3<Archive>
4<Section>
5  <Description>
6    <Metadata name="gsdlsourcefilename">import/tablature_txt/members.aol.com/way2smug/letitbe.txt</Metadata>
7    <Metadata name="gsdldoctype">indexed_doc</Metadata>
8    <Metadata name="Plugin">TextPlugin</Metadata>
9    <Metadata name="FileSize">5029</Metadata>
10    <Metadata name="Source">letitbe.txt</Metadata>
11    <Metadata name="SourceFile">letitbe.txt</Metadata>
12    <Metadata name="Language">en</Metadata>
13    <Metadata name="Encoding">utf8</Metadata>
14    <Metadata name="Title">LET IT BE BY THE BEATLES</Metadata>
15    <Metadata name="FileFormat">Text</Metadata>
16    <Metadata name="dc.Format">Tablature</Metadata>
17    <Metadata name="Identifier">HASH01007f358672f1faecf04123</Metadata>
18    <Metadata name="lastmodified">1522032932</Metadata>
19    <Metadata name="lastmodifieddate">20180326</Metadata>
20    <Metadata name="oailastmodified">1522033010</Metadata>
21    <Metadata name="oailastmodifieddate">20180326</Metadata>
22    <Metadata name="assocfilepath">HASH0100.dir</Metadata>
23  </Description>
24  <Content>&lt;pre&gt;
25LET IT BE BY THE BEATLES
26transcribed by MaxxDaddy
27
28
29First Solo:
30
31Keyboard part:
32
33 F  C/E  G7/D  C  Bb  F/A  G  F  C   F   C   G  F  C
34-5---3----1----0-----------------------------3--1--0-
35-6---5----3----1--3----1---0-----1---1---1---0--1--1-
36------------------3----2---0--2--0---2---0---0--2--0-
37------------------------------3--2---3---2---0--3--2-
38---------------------------------3---3---3---2--3--3-
39-------------------------------------1-------3--1----
40
41 C                    G               Am        F    C           
42---------------------------------------------------------8---------
43-------------------------------------------------------------------
44-5----5-----------------------------5-7(9)-(9)7-5~---7/9---9\\7-5h7-
45-5h7--5----------------5-5---5--5/7--------------------------------
46---------7-5--3--3-5/7-----7---------------------------------------
47-------------------------------------------------------------------
48
49 G               F                C                        G 
50------5----------------------------------------------------------------
51--------------------------------------------------------8------8-----8-
52-7(9)----(9)7-5----------------------------5--5---5-7/9----7/9---7/9---
53-----------------7p5-7p5--------------5h7-------7----------------------
54--------------------------7\\5-3h5-3------------------------------------
55-----------------------------------------------------------------------
56
57 Am         F                   C     G         F                     C
58----------8-10(12)--(12)10-8h10-8----(17)15------------------------------
59-10--8h10--------------------------0--------(17)15p13-15-(17)15p13h15-13-
60-------------------------------------------------------------------------
61-------------------------------------------------------------------------
62-------------------------------------------------------------------------
63-------------------------------------------------------------------------
64
65Second Solo(played during last chorus):
66
67        C            Am         C/G               F       C 
68------------------------------------------5----------------------
69----------------------------------------------------------8-8--8-
70-5--5---5--5--5---5-----5-----5-----5-7(9)--(9)7--5-7-7/9--------
71----5h7-------5h7----5h7---5h7--5h7------------------------------
72-----------------------------------------------------------------
73-----------------------------------------------------------------
74        C         G          F        C 
75-----------------------------------------
76-15(13)-10-8h10-8------------------------
77------------------9\\7-5-7(9)-5------5-5~-
78--------------------------------5h7------
79-----------------------------------------
80-----------------------------------------
81
82outro(as played on keyboard)
83
84 F  C/E  G7/D  C  Bb  F/A  G  F  C
85-5---3----1----0-----------------0-
86-6---5----3----1--3----1---0-----1-
87------------------3----2---0--2--0-
88------------------------------3--2-
89---------------------------------3-
90-----------------------------------
91
92
93Lyrics:
94
95C  G  Am  Fmaj7  F6  C  G  F  C
96
97       C              G                 Am          Fmaj7    F6
98When I find myself in times of trouble, Mother Mary comes to me
99   C                 G              F  C
100Speaking words of wisdom, let it be
101    C              G                 Am              Fmaj7    F6
102And in my hour of darkness, She is standing right in front of me
103   C                 G              F  G
104Speaking words of wisdom, Let it be
105       Am         C/G         F          C
106Let it be, let it be, let it be, let it be
107C                G              F  C
108Whisper words of wisdom, let it be
109
110     C              G                 Am          Fmaj7    F6
111And when the broken hearted people, Living in the world agree
112   C                 G              F  C
113There will be an answer, let it be
114       C              G                 Am                  Fmaj7    F6
115But though they may be parted, There is still a chance that they may see
116   C                 G              F  C
117There will be an answer, let it be
118
119       Am         C/G         F          C
120Let it be, let it be, let it be, let it be
121C                G              F  C
122There will be an answer, let it be
123       Am         C/G         F          C
124Let it be, let it be, let it be, let it be
125C                G              F  C
126Whisper words of wisdom, let it be
127
128F C/E G7/D C Bb F/A G F C  F  C  G F C
129
130(Solo)
131
132       Am         C/G         F          C
133Let it be, let it be, let it be, let it be
134C                G              F  C
135Whisper words of wisdom, let it be
136     C                 G                 Am                Fmaj7    F6
137And when the night is cloudy, There is still a light that shines on me
138   C                 G              F  C
139Shine on till tomorrow, let it be
140       C              G                 Am          Fmaj7    F6
141I wake up to the sound of music, Mother Mary comes to me
142   C                 G              F  C
143Speaking words of wisdom, let it be
144
145F C/E G7/D C Bb F/A G F C
146&lt;/pre&gt;</Content>
147</Section>
148</Archive>
Note: See TracBrowser for help on using the browser.