root/other-projects/nightly-tasks/diffcol/trunk/model-collect/Multimedia/archives/HASH013a.dir/doc.xml @ 32161

Revision 32161, 4.7 KB (checked in by ak19, 20 months ago)

Regenerating model collections after <meta-file> entry in archiveinf-src.db has become compulsory

Line 
1<?xml version="1.0" encoding="utf-8" standalone="no"?>
2<!DOCTYPE Archive SYSTEM "http://greenstone.org/dtd/Archive/1.0/Archive.dtd">
3<Archive>
4<Section>
5  <Description>
6    <Metadata name="gsdlsourcefilename">import/tablature_txt/members.aol.com/way2smug/dontlet.txt</Metadata>
7    <Metadata name="gsdldoctype">indexed_doc</Metadata>
8    <Metadata name="Plugin">TextPlugin</Metadata>
9    <Metadata name="FileSize">3523</Metadata>
10    <Metadata name="Source">dontlet.txt</Metadata>
11    <Metadata name="SourceFile">dontlet.txt</Metadata>
12    <Metadata name="Language">en</Metadata>
13    <Metadata name="Encoding">utf8</Metadata>
14    <Metadata name="Title">DON'T LET ME DOWN </Metadata>
15    <Metadata name="FileFormat">Text</Metadata>
16    <Metadata name="dc.Format">Tablature</Metadata>
17    <Metadata name="Identifier">HASH013a2bdcb1fda160264c92ab</Metadata>
18    <Metadata name="lastmodified">1522032932</Metadata>
19    <Metadata name="lastmodifieddate">20180326</Metadata>
20    <Metadata name="oailastmodified">1522033010</Metadata>
21    <Metadata name="oailastmodifieddate">20180326</Metadata>
22    <Metadata name="assocfilepath">HASH013a.dir</Metadata>
23  </Description>
24  <Content>&lt;pre&gt;
25DON'T LET ME DOWN
26transcribed by MaxxDaddy
27
28Intro riff:
29 E
30-------------------------
31-------------------------
32-------9-9----9----------
33-9--9--9-9h11-9-9-----9~-
34-9h11-----------9-12-11~-
35-------------------------
36
37Chorus:
38 F#m7   F#m7/B
39--9--------9---
40--10-------10--
41--9--------9---
42--11-------9---
43--9--------9---
44---------------
45
46Verse:
47&quot;like she does:
48          F#m7                                              Emaj7  Esus E
49-----------14\\12--12--12\\9---9---9----------------------------7-----7---0-
50-----------14\\12--12--12\\10--10--10---------------------------9-----10--0-
51-------------------------------------11\\9--9--9--9\\6--6--6----8-----9---1-
52--------------------------------------------------------------9-----9---2-
53--------------------------------------------------------------7-----7---2-
54------------------------------------------------------------------------0-
55
56&quot;like she do me&quot;
57           F#m7                                               Emaj7 Esus  E 
58-----------14\\12--12--12\\9---9---9------------------------------------------
59-----------14\\12--12--12\\10--10--10--10-----------------------9-------9-9---
60-------------------------------------11--11-11-11-9--9\\6-6/9--9--9----9-9-9-
61-----------------------------------------11-11-11-9-----------9--9h11-----9-
62----------------------------------------------------------------------------
63----------------------------------------------------------------------------
64
65Bridge:
66&quot;for the first time&quot;                             
67  E                                             B7 
68---------------------------------------------------------------------------
69---------------------------------------------------------------------------
70----------------9--8--9--6--9-----9-----9-----9----------------------------
71-------------------------------9-----6--------------------7-----6----------
72-------------7-----------------------------9--------9--6-----9-----7--9--6-
73-------------------------------------------------7-------------------------
74                                               E   A  E
75----------------------------------------------
76----------------------------------------------
77----------------------------------------------
78--------------------7-----6-------------------
79-7-----6------9--6-----9-----7--9--6--7-----6-
80----7------7-----------------------------7----
81
82Lyrics:
83
84(*-intro riff)
85
86
87Chorus:
88
89*
90
91               F#m7   F#m7/B        E* A  E
92  Don't let me down   Don't let me down             
93             F#m7   F#m7/B        E*  A  E
94Don't let me down   Don't let me down
95
96
97E                             F#m7
98Nobody ever loved me like she does 
99                     F#m/B      Emaj7 Esus  E
100oo she does  yes she does
101E                                      F#m7             
102And if somebody ever loved me like she do me 
103                      F#m/B      Emaj7  Esus  E
104oo she do me, yes she does
105
106(chorus)
107
108E                                       F#m7
109And from the first time that she really done me   
110                            F#m/B      Emaj7 Esus  E
111oo she done me, she done me good
112E                          F#m7
113I guess nobody ever really done me 
114                            F#m/B      Emaj7 Esus  E
115oo she done me, she does me good
116
117(chorus)
118
119E                                                          B7
120I'm in love for the first time  Don't you know it's gonna last
121                                                           E *  A  E
122It's a love that lasts forever,   It's a love that had no past
123
124(chorus)
125
126&lt;/pre&gt;</Content>
127</Section>
128</Archive>
Note: See TracBrowser for help on using the browser.