root/other-projects/nightly-tasks/diffcol/trunk/model-collect/Multimedia/archives/HASH01db/2dc2853c.dir/doc.xml @ 32161

Revision 32161, 2.3 KB (checked in by ak19, 20 months ago)

Regenerating model collections after <meta-file> entry in archiveinf-src.db has become compulsory

Line 
1<?xml version="1.0" encoding="utf-8" standalone="no"?>
2<!DOCTYPE Archive SYSTEM "http://greenstone.org/dtd/Archive/1.0/Archive.dtd">
3<Archive>
4<Section>
5  <Description>
6    <Metadata name="gsdlsourcefilename">import/tablature_txt/members.aol.com/way2smug/michelle.txt</Metadata>
7    <Metadata name="gsdldoctype">indexed_doc</Metadata>
8    <Metadata name="Plugin">TextPlugin</Metadata>
9    <Metadata name="FileSize">1162</Metadata>
10    <Metadata name="Source">michelle.txt</Metadata>
11    <Metadata name="SourceFile">michelle.txt</Metadata>
12    <Metadata name="Language">en</Metadata>
13    <Metadata name="Encoding">utf8</Metadata>
14    <Metadata name="Title">MICHELLE </Metadata>
15    <Metadata name="FileFormat">Text</Metadata>
16    <Metadata name="dc.Format">Tablature</Metadata>
17    <Metadata name="Identifier">HASH01db2dc2853c313776d82881</Metadata>
18    <Metadata name="lastmodified">1522032932</Metadata>
19    <Metadata name="lastmodifieddate">20180326</Metadata>
20    <Metadata name="oailastmodified">1522033010</Metadata>
21    <Metadata name="oailastmodifieddate">20180326</Metadata>
22    <Metadata name="assocfilepath">HASH01db/2dc2853c.dir</Metadata>
23  </Description>
24  <Content>&lt;pre&gt;
25MICHELLE
26TAB BY MAXXDADDY
27
28Intro:
29-----8---8---8---8---8--6-----8-
30-----9---9---9---9---6--6--9--8-
31-/10---9---8---7-----6--------9-
32--------------------------------
33--------------------------------
34--------------------------------
35
36Verse:
37
38-8--8--9------9-------------------8----------8-
39-6--6--6--9----9----6---9--12--9--8---9------8-
40-5--5--6--6-----9---7--10--13-10--9-----10---9-
41-7--7--6--6--9------6---9--12--9------9----9---
42-----------------------------------------------
43-----------------------------------------------
44
45
46Chorus:
47 Fm   G#6   C#    C    Fm
48-8-----4----9-----8----8--
49-9-----6----9-----8----9--
50-10----5----10----9----10- go to intro
51-10----4----11----10---10-
52-8-----6----11----10---8--
53-------4----9-----8-------
54
55
56Solo:
57--------------------------------------------------------------------
58--------------------------------------------------------------------
59--------------------------------------------------------------------
60----------------------7~--8-10-11~--6~-5~-6-8-----5-6--------6------
61------7-8-10-8~--8-10-------------------------6-8-----5-7~-5---8-7~-
62-8-10---------------------------------------------------------------
63
64&lt;/pre&gt;</Content>
65</Section>
66</Archive>
Note: See TracBrowser for help on using the browser.