root/other-projects/nightly-tasks/diffcol/trunk/model-collect/Multimedia/archives/HASH01ec.dir/doc.xml @ 32161

Revision 32161, 3.5 KB (checked in by ak19, 20 months ago)

Regenerating model collections after <meta-file> entry in archiveinf-src.db has become compulsory

Line 
1<?xml version="1.0" encoding="utf-8" standalone="no"?>
2<!DOCTYPE Archive SYSTEM "http://greenstone.org/dtd/Archive/1.0/Archive.dtd">
3<Archive>
4<Section>
5  <Description>
6    <Metadata name="gsdlsourcefilename">import/tablature_txt/members.aol.com/way2smug/please.txt</Metadata>
7    <Metadata name="gsdldoctype">indexed_doc</Metadata>
8    <Metadata name="Plugin">TextPlugin</Metadata>
9    <Metadata name="FileSize">2382</Metadata>
10    <Metadata name="Source">please.txt</Metadata>
11    <Metadata name="SourceFile">please.txt</Metadata>
12    <Metadata name="Language">en</Metadata>
13    <Metadata name="Encoding">utf8</Metadata>
14    <Metadata name="Title">PLEASE PLEASE ME </Metadata>
15    <Metadata name="FileFormat">Text</Metadata>
16    <Metadata name="dc.Format">Tablature</Metadata>
17    <Metadata name="Identifier">HASH01ec5d334e07c0566cf5657d</Metadata>
18    <Metadata name="lastmodified">1522032932</Metadata>
19    <Metadata name="lastmodifieddate">20180326</Metadata>
20    <Metadata name="oailastmodified">1522033010</Metadata>
21    <Metadata name="oailastmodifieddate">20180326</Metadata>
22    <Metadata name="assocfilepath">HASH01ec.dir</Metadata>
23  </Description>
24  <Content>&lt;pre&gt;
25PLEASE PLEASE ME
26transcribed by MaxxDaddy
27
28
29Intro:
30-----------------------------------------------------------------0-
31-----------------------------------------------------------------0-
32-----------9---8--6-----6---------------9---8--6-----6-----------1-
33---9-----------------9-----9--6-------------------9----9---6-----2-
34-------7---------------------------7-----------------------------2-
35-----------------------------------------------------------------0-
36
37Verse:
38E                                   A  E     G  A  B
39--0----0-----0--0----0----0-----0---0--0-----3--5--7--------------------
40--5----4-----2--0----2----0---------2--0-----3--5--7--------------------
41--------------------------------1---2--1-----4--6--8--------------------
42---------------------------------------------5--7--9--------------------
43---------------------------------------------5--7--9--------------------
44---------------------------------------------3--5--7--------------------
45 Last night  I said these words to my girl
46E                              A   E
47--0--0----0---0----0--0----0---0---0-----------------------------------
48--5--4----2---0----2--0--------2---0-----------------------------------
49---------------------------1---2---1-----------------------------------
50---------------------------------------------------2--2----------------
51---------------------------------------------------------2-------------
52---------------------------------------------0--0----------------------
53  I know you ne - ver e - ven try girl
54
55Chorus:
56     A              F#m             C#m              A
57Come on         Come on         Come on         Come on
58        Come on         Come on         Come on         Come on
59          E           A       B         E 
60Please please me oh yeah like I please you.
61
62(intro riff)
63
64E                                      G A B
65You don't need me to show the way girl
66E
67Why do I always have to say girl
68
69(chorus)
70
71Bridge:
72A                 
73I don't want to sound complaining
74 B                                  E
75But you know there's always rain in my heart
76A   
77I do all the pleasing with you
78 B                           E
79It's so hard to reason with you
80     A       B               E 
81Oh yeah, why do you make me blue?
82
83Third verse same as the first,
84
85Repeat chorus, but second line of chorus is repeated three times, then :
86
87Ending chords are:
88E   G   C   B   E
89
90&lt;/pre&gt;</Content>
91</Section>
92</Archive>
Note: See TracBrowser for help on using the browser.