root/other-projects/nightly-tasks/diffcol/trunk/model-collect/Multimedia/archives/HASH0924.dir/doc.xml @ 32161

Revision 32161, 4.3 KB (checked in by ak19, 20 months ago)

Regenerating model collections after <meta-file> entry in archiveinf-src.db has become compulsory

Line 
1<?xml version="1.0" encoding="utf-8" standalone="no"?>
2<!DOCTYPE Archive SYSTEM "http://greenstone.org/dtd/Archive/1.0/Archive.dtd">
3<Archive>
4<Section>
5  <Description>
6    <Metadata name="gsdlsourcefilename">import/tablature_txt/members.aol.com/way2smug/sgtpepper.txt</Metadata>
7    <Metadata name="gsdldoctype">indexed_doc</Metadata>
8    <Metadata name="Plugin">TextPlugin</Metadata>
9    <Metadata name="FileSize">3138</Metadata>
10    <Metadata name="Source">sgtpepper.txt</Metadata>
11    <Metadata name="SourceFile">sgtpepper.txt</Metadata>
12    <Metadata name="Language">en</Metadata>
13    <Metadata name="Encoding">utf8</Metadata>
14    <Metadata name="Title">SGT. PEPPER'S LONELY HEART CLUB BAND </Metadata>
15    <Metadata name="FileFormat">Text</Metadata>
16    <Metadata name="dc.Format">Tablature</Metadata>
17    <Metadata name="Identifier">HASH092471e90222c1f634d210</Metadata>
18    <Metadata name="lastmodified">1522032932</Metadata>
19    <Metadata name="lastmodifieddate">20180326</Metadata>
20    <Metadata name="oailastmodified">1522033010</Metadata>
21    <Metadata name="oailastmodifieddate">20180326</Metadata>
22    <Metadata name="assocfilepath">HASH0924.dir</Metadata>
23  </Description>
24  <Content>&lt;pre&gt;
25SGT. PEPPER'S LONELY HEART CLUB BAND
26transcribed by MaxxDaddy
27
28Intro:
29
30A7#9         C7                  G7
31------------------------8-10----------
32---8-10-10--------8-10-------8-6-8----
33-9--------------9------------------7~-
34--------------------------------------
35--------------------------------------
36
37       G7                 A7        C7                        G7 
38It was twenty years ago today, Sgt. Pepper taught the band to play
39             G7                  A7
40They've been going in and out of style
41            C7                    G7
42But they're guaranteed to raise a smile.
43   A7                         C7
44So may I introduce to you the act you've know for all these years,
45G7            C7                 G7   
46Sgt. Pepper's Lonely Hearts Club Band
47
48horn break:
49    C7                    F7                     C7       
50-----------------------|----------------------|---------------------
51------11-10-8----------|----------------------|-8----13-11-10-8-----
52---9----------9-----9--|-10----10---10--------|----------------10-9-
53----------------10-10--|-7--10-7--8-10--7---7-|-7-------10-10-------
54-----------------------|------------------8---|---7--10-------------
55-----------------------|----------------------|---------------------
56
57 D7
58-----------------------------------|------------------------10~-
59---------10-13------------------10-|-13------------------10-----
60----9-11-------------9-11----11----|----------9-11----11--------
61-12---------12-11-12------12-------|-12-11-12------12-----------
62-----------------------------------|----------------------------
63-----------------------------------|----------------------------
64
65      G             Bb      C7         G     
66We're Sgt. Pepper's Lonely Hearts Club Band,
67   C7                      G7
68We hope you will enjoy the show,
69      G             Bb     C7          G         
70We're Sgt. Pepper's Lonely Hearts Club Band,
71    A7                       D7 
72Sit back and let the evening go.
73C7                    G7 
74Sgt. Pepper's Lonely, Sgt. Pepper's Lonely,
75A7                   C7      C7   G7
76Sgt. Pepper's Lonely Heart's Club Band.
77
78     C7                         F7   
79It's wonderful to be here, it's certainly a thrill. 
80       C7                           D7
81You're such a lovely audience, We'd like to take you home with us,
82
83We'd love to take you home
84
85        G7                      A7
86I don't really want to stop the show,
87      C7                             G7   
88But I thought that you might like to know,
89    G7                       A7
90The singer's going to sing a song,
91       C7                     G7
92And he wants you all to sing along.
93   A7                          C7     
94So let me introduce to you The one and only Billy Shears
95    G7           C7                 G7
96And Sgt. Peppers Lonely Hearts Club Band.
97
98operative chords:
99
100A7#9   G7     A7     C7        D7    Bb
101-8-----3------5-----0----8-----------6---
102-8-----3------5-----1----8-----7-----6---
103-6-----4------6-----3-or-9-----5-----7---
104-5-----3------5-----2----8-----4-----8---
105-7-----5------7-----3----10----5-----8---
106-5-----3------5----------8-----------6---
107&lt;/pre&gt;</Content>
108</Section>
109</Archive>
Note: See TracBrowser for help on using the browser.