root/other-projects/nightly-tasks/diffcol/trunk/model-collect/Multimedia/archives/HASHf45e.dir/doc.xml @ 32161

Revision 32161, 2.3 KB (checked in by ak19, 20 months ago)

Regenerating model collections after <meta-file> entry in archiveinf-src.db has become compulsory

Line 
1<?xml version="1.0" encoding="utf-8" standalone="no"?>
2<!DOCTYPE Archive SYSTEM "http://greenstone.org/dtd/Archive/1.0/Archive.dtd">
3<Archive>
4<Section>
5  <Description>
6    <Metadata name="gsdlsourcefilename">import/tablature_txt/members.aol.com/way2smug/flying.txt</Metadata>
7    <Metadata name="gsdldoctype">indexed_doc</Metadata>
8    <Metadata name="Plugin">TextPlugin</Metadata>
9    <Metadata name="FileSize">1127</Metadata>
10    <Metadata name="Source">flying.txt</Metadata>
11    <Metadata name="SourceFile">flying.txt</Metadata>
12    <Metadata name="Language">en</Metadata>
13    <Metadata name="Encoding">utf8</Metadata>
14    <Metadata name="Title">FLYING BY THE BEATLES</Metadata>
15    <Metadata name="FileFormat">Text</Metadata>
16    <Metadata name="dc.Format">Tablature</Metadata>
17    <Metadata name="Identifier">HASHf45e23adcbcf967e7c611f</Metadata>
18    <Metadata name="lastmodified">1522032932</Metadata>
19    <Metadata name="lastmodifieddate">20180326</Metadata>
20    <Metadata name="oailastmodified">1522033010</Metadata>
21    <Metadata name="oailastmodifieddate">20180326</Metadata>
22    <Metadata name="assocfilepath">HASHf45e.dir</Metadata>
23  </Description>
24  <Content>&lt;pre&gt;
25FLYING BY THE BEATLES
26transcribed by Maxxdaddy
27guitar 1 plays a 12 bar progression in C - (C C sus C Csus C F7  G7  F  C)
28
29F7 riff
30----------------------------
31-----------/6--5--3--1-0--1-
32----5---5--/7--5--3--2-0--0-
33-/3---3-------------------2-
34----------------------------
35----------------------------
36
37G7 turnaround
38-12\\10--8--7\\5--3--1--0--1/3--3--1/3--3--1--0-----0---------------
39-----------------------------------------------1-----1--1---------
40-12\\10--9--7\\5--4--2--0--2/4--4--2/4--4--3--0-----0---------------
41-----------------------------------------------2-----2--2---------
42-----------------------------------------------------------3p0----
43---------------------------------------------------------------3--
44
45melody
46   (2x)
47||---------------||---------------------------------------------
48||----------3-5~-||---------------------3-5~-----8~--6~--5~--3~-
49||----4--5-------||---4-5-4-2~-----4-5-----------7~--5~--5~--4~-
50||-5-------------||-3-----------5-------------------------------
51||---------------||---------------------------------------------
52||---------------||---------------------------------------------
53&lt;/pre&gt;</Content>
54</Section>
55</Archive>
Note: See TracBrowser for help on using the browser.