root/other-projects/nightly-tasks/diffcol/trunk/model-collect/Multimedia/archives/HASH3b69.dir/doc.xml @ 32161

Revision 32161, 4.2 KB (checked in by ak19, 20 months ago)

Regenerating model collections after <meta-file> entry in archiveinf-src.db has become compulsory

Line 
1<?xml version="1.0" encoding="utf-8" standalone="no"?>
2<!DOCTYPE Archive SYSTEM "http://greenstone.org/dtd/Archive/1.0/Archive.dtd">
3<Archive>
4<Section>
5  <Description>
6    <Metadata name="gsdlsourcefilename">import/tablature_txt/members.aol.com/way2smug/hardday.txt</Metadata>
7    <Metadata name="gsdldoctype">indexed_doc</Metadata>
8    <Metadata name="Plugin">TextPlugin</Metadata>
9    <Metadata name="FileSize">3049</Metadata>
10    <Metadata name="Source">hardday.txt</Metadata>
11    <Metadata name="SourceFile">hardday.txt</Metadata>
12    <Metadata name="Language">en</Metadata>
13    <Metadata name="Encoding">utf8</Metadata>
14    <Metadata name="Title">HARD DAY'S NIGHT </Metadata>
15    <Metadata name="FileFormat">Text</Metadata>
16    <Metadata name="dc.Format">Tablature</Metadata>
17    <Metadata name="Identifier">HASH3b699f5d52a14e3ba73ca0</Metadata>
18    <Metadata name="lastmodified">1522032932</Metadata>
19    <Metadata name="lastmodifieddate">20180326</Metadata>
20    <Metadata name="oailastmodified">1522033010</Metadata>
21    <Metadata name="oailastmodifieddate">20180326</Metadata>
22    <Metadata name="assocfilepath">HASH3b69.dir</Metadata>
23  </Description>
24  <Content>&lt;pre&gt;
25HARD DAY'S NIGHT
26transcribed by MaxxDaddy
27
28Intro Chord:
29 Gsus
30--3~-
31--3~-
32--5~-
33--5~-
34--5~-
35--3--
36
37Verse:
38play G C G like this:
39
40 G   C   G
41-3---3---3-
42-3---3---3-
43-0---0---0-
44-0---2---0-
45-2---3---2-
46-3-------3-
47
48Solo (played on electric 12-string):
49 G    C       G    F                     G
50--------------------------------------------
51--------------------------------------------
52--------------------------------------------
53----------------------3---3---3---3---------
54------1-3-1-3/5~---3h5-3h5-3h5-3h5-5\\3-1----
55-3--3------------------------------------3~-
56
57 G    C       G    F                     G
58--------------------------------------------
59--------------------------------------------
60--------------------------------------------
61----------------------3---3---3---3---------
62------1-3-1-3/5~---3h5-3h5-3h5-3h5-5\\3-1----
63-3--3------------------------------------3~-
64
65Outro:
66F9/D    F/D     F9/D    F/D     F9/D    F/D     F9/D    F/D
67-3-------1-------3-------1-------3-------1-------3-------1-
68---1---1---1---1---1---1---1---1---1---1---1---1---1---1---
69-----2-------2-------2-------2-------2-------2-------2-----
70-----------------------------------------------------------
71-----------------------------------------------------------
72-----------------------------------------------------------
73
74
75LYRICS:
76
77Gsus
78
79             G    C      G                   F              G
80It's been a hard day's night, and I've been working like a dog,
81             G    C      G                 F               G
82It's been a hard day's night, I should be sleeping like a log,
83            C                            D   
84But when I get home to you, I find the things that you do,
85              G   C7   G
86Will make me feel alright.
87            G    C   G               F                   G
88You know I work all day, to get you money to buy you things,
89           G              C        G                  F            G
90And it's worth it just to hear you say, you're gonna give me everything.
91           C                              D
92So why I love to come home, 'cause when I get you alone,
93              G  C  G
94You know I'll be okay.
95          Bm   Em                      Bm
96When I'm home, everything seems to be right;
97          G     Em                     C7      D7
98When I'm home, feeling you holding me tight, tight, yeah.
99             G    C      G                   F              G
100It's been a hard day's night, and I've been working like a dog,
101             G    C      G                  F              G
102It's been a hard day's night, I should be sleeping like a log,
103            C                            D   
104But when I get home to you, I find the things that you do,
105              G    C7  G
106Will make me feel alright.
107
108(solo)
109           C                              D
110So why I love to come home, 'cause when I get you alone,
111              G  C  G
112You know I feel  o kay
113
114            G    C    G
115You know I feel all right,
116            G    C    F9/D  F/D
117You know I feel all right
118
119F9/D  F/D  F9/D  F/D  F9/D  F/D
120
121(fade out)
122
123&lt;/pre&gt;</Content>
124</Section>
125</Archive>
Note: See TracBrowser for help on using the browser.